| Home | Fading Captain Series | GBV News | The Band | The Music | The Critics & Fans | Merchandise | Other Stuff |



Guided By Voices : Rhine Jive Click (from Under The Bushes Under The Stars)

Tab by DouG
 

tune guitar down a half-step

 

intro and verse riff:

|--------------------------|

|--------------------------|

|--------------------------|

|--------------------------|

|--9--9--9--9--9--9--9--0--|

|--------------------------|

 

|--------------------------|

|--------------------------|

|--------------------------|

|--------------------------|

|--3--3--3--3--3--3--3--0--|

|--------------------------|

 

|------------------------------|

|------------------------------|

|---------------------------0--|

|---------------------------0--|

|--2--2--2--2--2--2--2--0---2--|

|---------------------------3--|

(with riff twice)

crowded gymnasium, no shortage of knockouts

and the country dance sellathon

overworked spines, all efforts considered

 

(then this riff four times)

|--------------------------------------------------|

|--------------------------------------------------|

|--------------------------------------------------|

|--------------------------------------------------|

|--0--9--9--9--0--5--5--5--0--5--5--5--0--3--3--3--|

|--------------------------------------------------|

oooooooooooooooooohhhhhhhhhhhhhhhhhhhhhhhhhhhhhhh

 

F                        E        D

but not before the prizes are posted

F                            (start next riff here)

the king size electric institute

 

(this is the one I mean)

(play it twice)

|--------------------------------------------------|

|--------------------------------------------------|

|--------------------------------------------------|

|--------------------------------------------------|

|--0--5--5--5--0--5--5--5--0--3--3--3--0--3--3--3--|

|--------------------------------------------------|

 

E

hes proud to prevent

Bb

dazzling the rhine jive click

     G                                        E

and his up and coming bombadeers are fucking right

 

                      Bb

how they stacks in a million years

 

(then do that last riff again twice and end on a G chord)


| Home | Fading Captain Series | GBV News | The Band | The Music | The Critics & Fans | Merchandise | Other Stuff |