| Home | Fading Captain Series | GBV News | The Band | The Music | The Critics & Fans | Merchandise | Other Stuff |



Guided By Voices: Storm Vibrations (from Universal Truths and Cycles)

Tabbed by: DouG

part 1

|--------------------------|

|--------------------------|

|--------9--------9--------|

|-----9--------9--------9--|

|--0--------0--------0-----|

|--------------------------|

 

part 2

|--------------------------|

|--------------------------|

|--------6--------6--------|

|-----7--------7--------7--|

|--0--------0--------0-----|

|--------------------------|

 

part 3

|-------------------------------|

|-------------------------------|

|---------10---------10---------|

|-----10---------10---------10--|

|--0----------0----------0------|

|-------------------------------|

 

part 4

|--------------------------|

|--------------------------|

|--------7--------7--------|

|-----5--------5--------5--|

|--0--------0--------0-----|

|--------------------------|

 

part 5

|--------------------------|

|--------------------------|

|--------7--------7--------|

|-----4--------4--------4--|

|--0--------0--------0-----|

|--------------------------|

 

part 6

|--------------------------|

|--------------------------|

|--------2--------2--------|

|-----2--------2--------2--|

|--0--------0--------0-----|

|--------------------------|

 

for intro, play parts 1-5 two times each,

then part 6 four times

 

Verse 1:

           1 (2x)             2 (2x)

Does she blend well?   Your choice, I mean.

 

     3 (2x)

Your angel baby monkey girl

 

     4 (2x)                           5 (2x)

The gift of smiles and love protection

 

      6 (4x)

Your sunshine mind

Your storm cloud eyes

 

4 (2x)                 5 (2x)

Blending colors into brown

 

            A         C

confusing emotions deliberately

 

         A       Em    D           C    A

does it hurt you?  To love, I mean.

 

4 (2x), 5 (2x)

 

    4 (2x)

and all the creases in your brow

 

     5 (2x)

the red bedspread, the storm vibrations

 

A       Em                    D

   The starless nights, the shattered scream

 

C            A                            *                  A

   Allowing pain to enter, you let your guard down obviously

 

 

|-------|

|---3---| I donít know what to call this chord,

|---2---| so Iíll just mark a * instead.

|---3---|

|---0---|

|-------|

 

 

4 (1x), 5 (1x), 6 (2x)

4 (1x), 5 (1x), 6 (2x)

 

4 (1x)

it will try to find you

 

5 (1x)                   6 (2x)

no matter where you may go

 

4 (1x)

it will try to find you

 

5 (1x)                 6 (2x)

no matter who you may know

 

G    D    A (4x)

 

Then play parts 1-4 two times each, then

 

         A       Em     D           C

Does it hurt you?   To love, I mean.

(repeat this until the end)


| Home | Fading Captain Series | GBV News | The Band | The Music | The Critics & Fans | Merchandise | Other Stuff |